ISO-10303-21;
HEADER;
FILE_DESCRIPTION(('STEP AP214'),'1');
FILE_NAME('00CYL-1010-00 (AL-415 Aluminum Cylinder) _DV_.stp','2021-02-04T01:03:42',(' '),(' '),'Spatial InterOp 3D',' ',' ');
FILE_SCHEMA(('AUTOMOTIVE_DESIGN { 1 0 10303 214 1 1 1 1 }'));
ENDSEC;
DATA;
#1=MECHANICAL_DESIGN_GEOMETRIC_PRESENTATION_REPRESENTATION(' ',(#10,#11,#12,#13,#14,#15,#16,#17,#18,#19,#20,#21,#22,#23,#24),#6);
#2=PRODUCT_DEFINITION_CONTEXT('',#25,'design');
#3=APPLICATION_PROTOCOL_DEFINITION('INTERNATIONAL STANDARD','automotive_design',1994,#25);
#4=PRODUCT_CATEGORY_RELATIONSHIP('NONE','NONE',#26,#27);
#5=SHAPE_DEFINITION_REPRESENTATION(#28,#29);
#6= (GEOMETRIC_REPRESENTATION_CONTEXT(3)GLOBAL_UNCERTAINTY_ASSIGNED_CONTEXT((#32))GLOBAL_UNIT_ASSIGNED_CONTEXT((#34,#35,#36))REPRESENTATION_CONTEXT('NONE','WORKSPACE'));
#10=STYLED_ITEM('',(#38),#39);
#11=STYLED_ITEM('',(#40),#41);
#12=STYLED_ITEM('',(#42),#43);
#13=STYLED_ITEM('',(#44),#45);
#14=STYLED_ITEM('',(#46),#47);
#15=STYLED_ITEM('',(#48),#49);
#16=STYLED_ITEM('',(#50),#51);
#17=STYLED_ITEM('',(#52),#53);
#18=STYLED_ITEM('',(#54),#55);
#19=STYLED_ITEM('',(#56),#57);
#20=STYLED_ITEM('',(#58),#59);
#21=STYLED_ITEM('',(#60),#61);
#22=STYLED_ITEM('',(#62),#63);
#23=STYLED_ITEM('',(#64),#65);
#24=STYLED_ITEM('',(#66),#67);
#25=APPLICATION_CONTEXT(' ');
#26=PRODUCT_CATEGORY('part','NONE');
#27=PRODUCT_RELATED_PRODUCT_CATEGORY('detail',' ',(#68));
#28=PRODUCT_DEFINITION_SHAPE('NONE','NONE',#69);
#29=ADVANCED_BREP_SHAPE_REPRESENTATION('00CYL-1010-00 (AL-415 Aluminum Cylinder) [DV]',(#70,#71),#6);
#32=UNCERTAINTY_MEASURE_WITH_UNIT(LENGTH_MEASURE(3.93700787401575E-05),#34,'','');
#34= (CONVERSION_BASED_UNIT('INCH',#74)LENGTH_UNIT()NAMED_UNIT(#77));
#35= (NAMED_UNIT(#79)PLANE_ANGLE_UNIT()SI_UNIT($,.RADIAN.));
#36= (NAMED_UNIT(#79)SOLID_ANGLE_UNIT()SI_UNIT($,.STERADIAN.));
#38=PRESENTATION_STYLE_ASSIGNMENT((#85));
#39=ADVANCED_FACE('',(#86,#87),#88,.T.);
#40=PRESENTATION_STYLE_ASSIGNMENT((#89));
#41=ADVANCED_FACE('',(#90,#91),#92,.T.);
#42=PRESENTATION_STYLE_ASSIGNMENT((#93));
#43=ADVANCED_FACE('',(#94,#95),#96,.T.);
#44=PRESENTATION_STYLE_ASSIGNMENT((#97));
#45=ADVANCED_FACE('',(#98,#99),#100,.T.);
#46=PRESENTATION_STYLE_ASSIGNMENT((#101));
#47=ADVANCED_FACE('',(#102,#103),#104,.F.);
#48=PRESENTATION_STYLE_ASSIGNMENT((#105));
#49=ADVANCED_FACE('',(#106,#107),#108,.T.);
#50=PRESENTATION_STYLE_ASSIGNMENT((#109));
#51=ADVANCED_FACE('',(#110,#111),#112,.F.);
#52=PRESENTATION_STYLE_ASSIGNMENT((#113));
#53=ADVANCED_FACE('',(#114,#115),#116,.F.);
#54=PRESENTATION_STYLE_ASSIGNMENT((#117));
#55=ADVANCED_FACE('',(#118,#119),#120,.F.);
#56=PRESENTATION_STYLE_ASSIGNMENT((#121));
#57=ADVANCED_FACE('',(#122,#123),#124,.T.);
#58=PRESENTATION_STYLE_ASSIGNMENT((#125));
#59=ADVANCED_FACE('',(#126),#127,.T.);
#60=PRESENTATION_STYLE_ASSIGNMENT((#128));
#61=ADVANCED_FACE('',(#129),#130,.T.);
#62=PRESENTATION_STYLE_ASSIGNMENT((#131));
#63=ADVANCED_FACE('',(#132,#133),#134,.F.);
#64=PRESENTATION_STYLE_ASSIGNMENT((#135));
#65=ADVANCED_FACE('',(#136,#137),#138,.T.);
#66=PRESENTATION_STYLE_ASSIGNMENT((#139));
#67=ADVANCED_FACE('',(#140,#141),#142,.T.);
#68=PRODUCT('00CYL-1010-00 (AL-415 Aluminum Cylinder) [DV]','00CYL-1010-00 (AL-415 Aluminum Cylinder) [DV]','PART-00CYL-1010-00 (AL-415 Aluminum Cylinder) [DV]-DESC',(#143));
#69=PRODUCT_DEFINITION('','NONE',#144,#2);
#70=MANIFOLD_SOLID_BREP('00CYL-1010-00 (AL-415 Aluminum Cylinder) [DV]',#145);
#71=AXIS2_PLACEMENT_3D('',#146,#147,#148);
#74=LENGTH_MEASURE_WITH_UNIT(LENGTH_MEASURE(25.4),#149);
#77=DIMENSIONAL_EXPONENTS(1.0,0.0,0.0,0.0,0.0,0.0,0.0);
#79=DIMENSIONAL_EXPONENTS(0.0,0.0,0.0,0.0,0.0,0.0,0.0);
#85=SURFACE_STYLE_USAGE(.BOTH.,#150);
#86=FACE_OUTER_BOUND('',#151,.T.);
#87=FACE_OUTER_BOUND('',#152,.T.);
#88=CYLINDRICAL_SURFACE('',#153,2.1875);
#89=SURFACE_STYLE_USAGE(.BOTH.,#154);
#90=FACE_BOUND('',#155,.T.);
#91=FACE_OUTER_BOUND('',#156,.T.);
#92=PLANE('',#157);
#93=SURFACE_STYLE_USAGE(.BOTH.,#158);
#94=FACE_OUTER_BOUND('',#159,.T.);
#95=FACE_OUTER_BOUND('',#160,.T.);
#96=TOROIDAL_SURFACE('',#161,0.575,0.05);
#97=SURFACE_STYLE_USAGE(.BOTH.,#162);
#98=FACE_OUTER_BOUND('',#163,.T.);
#99=FACE_OUTER_BOUND('',#164,.T.);
#100=CYLINDRICAL_SURFACE('',#165,0.625);
#101=SURFACE_STYLE_USAGE(.BOTH.,#166);
#102=FACE_OUTER_BOUND('',#167,.T.);
#103=FACE_OUTER_BOUND('',#168,.T.);
#104=CYLINDRICAL_SURFACE('',#169,1.68749999999978);
#105=SURFACE_STYLE_USAGE(.BOTH.,#170);
#106=FACE_OUTER_BOUND('',#171,.T.);
#107=FACE_OUTER_BOUND('',#172,.T.);
#108=CYLINDRICAL_SURFACE('',#173,2.1875);
#109=SURFACE_STYLE_USAGE(.BOTH.,#174);
#110=FACE_OUTER_BOUND('',#175,.T.);
#111=FACE_OUTER_BOUND('',#176,.T.);
#112=CYLINDRICAL_SURFACE('',#177,1.68749999999978);
#113=SURFACE_STYLE_USAGE(.BOTH.,#178);
#114=FACE_OUTER_BOUND('',#179,.T.);
#115=FACE_OUTER_BOUND('',#180,.T.);
#116=(B_SPLINE_SURFACE(3,3,((#182,#183,#184,#185,#186,#187,#188),(#189,#190,#191,#192,#193,#194,#195),(#196,#197,#198,#199,#200,#201,#202),(#203,#204,#205,#206,#207,#208,#209)),.UNSPECIFIED.,.F.,.T.,.F.)B_SPLINE_SURFACE_WITH_KNOTS((4,4),(4,3,4),(0.0,6.28318530717959),(9.7251363461711E-17,0.785398163397442,1.57079632679488),.UNSPECIFIED.)RATIONAL_B_SPLINE_SURFACE(((1.0,0.333333333333333,0.333333333333333,1.0,0.333333333333333,0.333333333333333,1.0),(0.804737854124368,0.268245951374789,0.268245951374789,0.804737854124368,0.268245951374789,0.268245951374789,0.804737854124368),(0.804737854124368,0.268245951374789,0.268245951374789,0.804737854124368,0.268245951374789,0.268245951374789,0.804737854124368),(1.0,0.333333333333333,0.333333333333333,1.0,0.333333333333333,0.333333333333333,1.0)))BOUNDED_SURFACE()REPRESENTATION_ITEM('')GEOMETRIC_REPRESENTATION_ITEM()SURFACE());
#117=SURFACE_STYLE_USAGE(.BOTH.,#216);
#118=FACE_OUTER_BOUND('',#217,.T.);
#119=FACE_OUTER_BOUND('',#218,.T.);
#120=(B_SPLINE_SURFACE(3,3,((#220,#221,#222,#223,#224,#225,#226),(#227,#228,#229,#230,#231,#232,#233),(#234,#235,#236,#237,#238,#239,#240),(#241,#242,#243,#244,#245,#246,#247)),.UNSPECIFIED.,.F.,.T.,.F.)B_SPLINE_SURFACE_WITH_KNOTS((4,4),(4,3,4),(0.0,6.28318530717959),(-1.57079632679518,-0.785398163397449,2.78665979180914E-13),.UNSPECIFIED.)RATIONAL_B_SPLINE_SURFACE(((1.0,0.333333333333333,0.333333333333333,1.0,0.333333333333333,0.333333333333333,1.0),(0.804737854124233,0.268245951374744,0.268245951374744,0.804737854124233,0.268245951374744,0.268245951374744,0.804737854124233),(0.804737854124233,0.268245951374744,0.268245951374744,0.804737854124233,0.268245951374744,0.268245951374744,0.804737854124233),(1.0,0.333333333333333,0.333333333333333,1.0,0.333333333333333,0.333333333333333,1.0)))BOUNDED_SURFACE()REPRESENTATION_ITEM('')GEOMETRIC_REPRESENTATION_ITEM()SURFACE());
#121=SURFACE_STYLE_USAGE(.BOTH.,#254);
#122=FACE_OUTER_BOUND('',#255,.T.);
#123=FACE_OUTER_BOUND('',#256,.T.);
#124=TOROIDAL_SURFACE('',#257,2.00049999999997,0.187);
#125=SURFACE_STYLE_USAGE(.BOTH.,#258);
#126=FACE_OUTER_BOUND('',#259,.T.);
#127=PLANE('',#260);
#128=SURFACE_STYLE_USAGE(.BOTH.,#261);
#129=FACE_OUTER_BOUND('',#262,.T.);
#130=PLANE('',#263);
#131=SURFACE_STYLE_USAGE(.BOTH.,#264);
#132=FACE_OUTER_BOUND('',#265,.T.);
#133=FACE_OUTER_BOUND('',#266,.T.);
#134=CYLINDRICAL_SURFACE('',#267,0.34375);
#135=SURFACE_STYLE_USAGE(.BOTH.,#268);
#136=FACE_BOUND('',#269,.T.);
#137=FACE_OUTER_BOUND('',#270,.T.);
#138=PLANE('',#271);
#139=SURFACE_STYLE_USAGE(.BOTH.,#272);
#140=FACE_OUTER_BOUND('',#273,.T.);
#141=FACE_OUTER_BOUND('',#274,.T.);
#142=(B_SPLINE_SURFACE(3,3,((#276,#277,#278,#279,#280,#281,#282),(#283,#284,#285,#286,#287,#288,#289),(#290,#291,#292,#293,#294,#295,#296),(#297,#298,#299,#300,#301,#302,#303)),.UNSPECIFIED.,.F.,.T.,.F.)B_SPLINE_SURFACE_WITH_KNOTS((4,4),(4,3,4),(0.0,6.28318530717959),(-1.57079632679499,-0.785398163397467,5.46229728115577E-14),.UNSPECIFIED.)RATIONAL_B_SPLINE_SURFACE(((1.0,0.333333333333333,0.333333333333333,1.0,0.333333333333333,0.333333333333333,1.0),(0.804737854124331,0.268245951374777,0.268245951374777,0.804737854124331,0.268245951374777,0.268245951374777,0.804737854124331),(0.804737854124331,0.268245951374777,0.268245951374777,0.804737854124331,0.268245951374777,0.268245951374777,0.804737854124331),(1.0,0.333333333333333,0.333333333333333,1.0,0.333333333333333,0.333333333333333,1.0)))BOUNDED_SURFACE()REPRESENTATION_ITEM('')GEOMETRIC_REPRESENTATION_ITEM()SURFACE());
#143=PRODUCT_CONTEXT('',#25,'mechanical');
#144=PRODUCT_DEFINITION_FORMATION_WITH_SPECIFIED_SOURCE(' ','NONE',#68,.NOT_KNOWN.);
#145=CLOSED_SHELL('',(#39,#41,#43,#45,#47,#49,#51,#53,#55,#57,#59,#61,#63,#65,#67));
#146=CARTESIAN_POINT('',(0.0,0.0,0.0));
#147=DIRECTION('',(0.0,0.0,1.0));
#148=DIRECTION('',(1.0,0.0,0.0));
#149= (NAMED_UNIT(#77)LENGTH_UNIT()SI_UNIT(.MILLI.,.METRE.));
#150=SURFACE_SIDE_STYLE('',(#311));
#151=EDGE_LOOP('',(#312));
#152=EDGE_LOOP('',(#313));
#153=AXIS2_PLACEMENT_3D('',#314,#315,#316);
#154=SURFACE_SIDE_STYLE('',(#317));
#155=EDGE_LOOP('',(#318));
#156=EDGE_LOOP('',(#319));
#157=AXIS2_PLACEMENT_3D('',#320,#321,#322);
#158=SURFACE_SIDE_STYLE('',(#323));
#159=EDGE_LOOP('',(#324));
#160=EDGE_LOOP('',(#325));
#161=AXIS2_PLACEMENT_3D('',#326,#327,#328);
#162=SURFACE_SIDE_STYLE('',(#329));
#163=EDGE_LOOP('',(#330));
#164=EDGE_LOOP('',(#331));
#165=AXIS2_PLACEMENT_3D('',#332,#333,#334);
#166=SURFACE_SIDE_STYLE('',(#335));
#167=EDGE_LOOP('',(#336));
#168=EDGE_LOOP('',(#337));
#169=AXIS2_PLACEMENT_3D('',#338,#339,#340);
#170=SURFACE_SIDE_STYLE('',(#341));
#171=EDGE_LOOP('',(#342));
#172=EDGE_LOOP('',(#343));
#173=AXIS2_PLACEMENT_3D('',#344,#345,#346);
#174=SURFACE_SIDE_STYLE('',(#347));
#175=EDGE_LOOP('',(#348));
#176=EDGE_LOOP('',(#349));
#177=AXIS2_PLACEMENT_3D('',#350,#351,#352);
#178=SURFACE_SIDE_STYLE('',(#353));
#179=EDGE_LOOP('',(#354));
#180=EDGE_LOOP('',(#355));
#182=CARTESIAN_POINT('',(-0.0432374205176286,0.948809896435059,-15.736397463881));
#183=CARTESIAN_POINT('',(1.20676257948244,0.948809896435059,-15.736397463881));
#184=CARTESIAN_POINT('',(1.20676257948244,-0.301190103565008,-15.736397463881));
#185=CARTESIAN_POINT('',(-0.0432374205176286,-0.301190103565008,-15.736397463881));
#186=CARTESIAN_POINT('',(-1.2932374205177,-0.301190103565008,-15.736397463881));
#187=CARTESIAN_POINT('',(-1.2932374205177,0.948809896435059,-15.736397463881));
#188=CARTESIAN_POINT('',(-0.0432374205176286,0.948809896435059,-15.736397463881));
#189=CARTESIAN_POINT('',(-0.0432374205176286,1.57120798641349,-15.736397463881));
#190=CARTESIAN_POINT('',(2.4515587594393,1.57120798641349,-15.736397463881));
#191=CARTESIAN_POINT('',(2.4515587594393,-0.92358819354344,-15.736397463881));
#192=CARTESIAN_POINT('',(-0.0432374205176286,-0.92358819354344,-15.736397463881));
#193=CARTESIAN_POINT('',(-2.53803360047456,-0.92358819354344,-15.736397463881));
#194=CARTESIAN_POINT('',(-2.53803360047456,1.57120798641349,-15.736397463881));
#195=CARTESIAN_POINT('',(-0.0432374205176286,1.57120798641349,-15.736397463881));
#196=CARTESIAN_POINT('',(-0.0432374205176286,2.01130989643479,-15.2962955538597));
#197=CARTESIAN_POINT('',(3.3317625794819,2.01130989643479,-15.2962955538597));
#198=CARTESIAN_POINT('',(3.3317625794819,-1.36369010356474,-15.2962955538597));
#199=CARTESIAN_POINT('',(-0.0432374205176286,-1.36369010356474,-15.2962955538597));
#200=CARTESIAN_POINT('',(-3.41823742051716,-1.36369010356474,-15.2962955538597));
#201=CARTESIAN_POINT('',(-3.41823742051716,2.01130989643479,-15.2962955538597));
#202=CARTESIAN_POINT('',(-0.0432374205176286,2.01130989643479,-15.2962955538597));
#203=CARTESIAN_POINT('',(-0.0432374205176286,2.01130989643479,-14.6738974638812));
#204=CARTESIAN_POINT('',(3.3317625794819,2.01130989643479,-14.6738974638812));
#205=CARTESIAN_POINT('',(3.3317625794819,-1.36369010356474,-14.6738974638812));
#206=CARTESIAN_POINT('',(-0.0432374205176286,-1.36369010356474,-14.6738974638812));
#207=CARTESIAN_POINT('',(-3.41823742051716,-1.36369010356474,-14.6738974638812));
#208=CARTESIAN_POINT('',(-3.41823742051716,2.01130989643479,-14.6738974638812));
#209=CARTESIAN_POINT('',(-0.0432374205176286,2.01130989643479,-14.6738974638812));
#216=SURFACE_SIDE_STYLE('',(#356));
#217=EDGE_LOOP('',(#357));
#218=EDGE_LOOP('',(#358));
#220=CARTESIAN_POINT('',(-0.0432374205176286,2.0113098964348,0.351102536118874));
#221=CARTESIAN_POINT('',(3.33176257948192,2.0113098964348,0.351102536118874));
#222=CARTESIAN_POINT('',(3.33176257948192,-1.36369010356475,0.351102536118875));
#223=CARTESIAN_POINT('',(-0.0432374205176286,-1.36369010356475,0.351102536118875));
#224=CARTESIAN_POINT('',(-3.41823742051718,-1.36369010356475,0.351102536118875));
#225=CARTESIAN_POINT('',(-3.41823742051718,2.0113098964348,0.351102536118875));
#226=CARTESIAN_POINT('',(-0.0432374205176286,2.0113098964348,0.351102536118875));
#227=CARTESIAN_POINT('',(-0.0432374205176286,2.01130989643498,0.973500626097413));
#228=CARTESIAN_POINT('',(3.33176257948227,2.01130989643498,0.973500626097413));
#229=CARTESIAN_POINT('',(3.33176257948227,-1.36369010356492,0.973500626097413));
#230=CARTESIAN_POINT('',(-0.0432374205176286,-1.36369010356492,0.973500626097413));
#231=CARTESIAN_POINT('',(-3.41823742051753,-1.36369010356492,0.973500626097413));
#232=CARTESIAN_POINT('',(-3.41823742051753,2.01130989643498,0.973500626097413));
#233=CARTESIAN_POINT('',(-0.0432374205176286,2.01130989643498,0.973500626097413));
#234=CARTESIAN_POINT('',(-0.0432374205176286,1.5712079864136,1.41360253611879));
#235=CARTESIAN_POINT('',(2.45155875943951,1.5712079864136,1.41360253611879));
#236=CARTESIAN_POINT('',(2.45155875943951,-0.923588193543543,1.41360253611879));
#237=CARTESIAN_POINT('',(-0.0432374205176286,-0.923588193543543,1.41360253611879));
#238=CARTESIAN_POINT('',(-2.53803360047477,-0.923588193543543,1.41360253611879));
#239=CARTESIAN_POINT('',(-2.53803360047477,1.5712079864136,1.41360253611879));
#240=CARTESIAN_POINT('',(-0.0432374205176286,1.5712079864136,1.41360253611879));
#241=CARTESIAN_POINT('',(-0.0432374205176286,0.948809896435058,1.41360253611862));
#242=CARTESIAN_POINT('',(1.20676257948243,0.948809896435058,1.41360253611862));
#243=CARTESIAN_POINT('',(1.20676257948243,-0.301190103565005,1.41360253611862));
#244=CARTESIAN_POINT('',(-0.0432374205176286,-0.301190103565005,1.41360253611862));
#245=CARTESIAN_POINT('',(-1.29323742051769,-0.301190103565005,1.41360253611862));
#246=CARTESIAN_POINT('',(-1.29323742051769,0.948809896435058,1.41360253611862));
#247=CARTESIAN_POINT('',(-0.0432374205176286,0.948809896435058,1.41360253611862));
#254=SURFACE_SIDE_STYLE('',(#359));
#255=EDGE_LOOP('',(#360));
#256=EDGE_LOOP('',(#361));
#257=AXIS2_PLACEMENT_3D('',#362,#363,#364);
#258=SURFACE_SIDE_STYLE('',(#365));
#259=EDGE_LOOP('',(#366));
#260=AXIS2_PLACEMENT_3D('',#367,#368,#369);
#261=SURFACE_SIDE_STYLE('',(#370));
#262=EDGE_LOOP('',(#371));
#263=AXIS2_PLACEMENT_3D('',#372,#373,#374);
#264=SURFACE_SIDE_STYLE('',(#375));
#265=EDGE_LOOP('',(#376));
#266=EDGE_LOOP('',(#377));
#267=AXIS2_PLACEMENT_3D('',#378,#379,#380);
#268=SURFACE_SIDE_STYLE('',(#381));
#269=EDGE_LOOP('',(#382));
#270=EDGE_LOOP('',(#383));
#271=AXIS2_PLACEMENT_3D('',#384,#385,#386);
#272=SURFACE_SIDE_STYLE('',(#387));
#273=EDGE_LOOP('',(#388));
#274=EDGE_LOOP('',(#389));
#276=CARTESIAN_POINT('',(-0.0432374205176286,2.51130989643503,0.351102536118874));
#277=CARTESIAN_POINT('',(4.33176257948237,2.51130989643503,0.351102536118874));
#278=CARTESIAN_POINT('',(4.33176257948237,-1.86369010356497,0.351102536118875));
#279=CARTESIAN_POINT('',(-0.0432374205176286,-1.86369010356497,0.351102536118875));
#280=CARTESIAN_POINT('',(-4.41823742051763,-1.86369010356497,0.351102536118875));
#281=CARTESIAN_POINT('',(-4.41823742051763,2.51130989643503,0.351102536118874));
#282=CARTESIAN_POINT('',(-0.0432374205176286,2.51130989643503,0.351102536118874));
#283=CARTESIAN_POINT('',(-0.0432374205176286,2.51130989643508,1.26639384491094));
#284=CARTESIAN_POINT('',(4.33176257948247,2.51130989643508,1.26639384491094));
#285=CARTESIAN_POINT('',(4.33176257948247,-1.86369010356502,1.26639384491094));
#286=CARTESIAN_POINT('',(-0.0432374205176286,-1.86369010356502,1.26639384491094));
#287=CARTESIAN_POINT('',(-4.41823742051773,-1.86369010356502,1.26639384491094));
#288=CARTESIAN_POINT('',(-4.41823742051773,2.51130989643508,1.26639384491094));
#289=CARTESIAN_POINT('',(-0.0432374205176286,2.51130989643508,1.26639384491094));
#290=CARTESIAN_POINT('',(-0.0432374205176286,1.86410120522709,1.9136025361189));
#291=CARTESIAN_POINT('',(3.03734519706649,1.86410120522709,1.9136025361189));
#292=CARTESIAN_POINT('',(3.03734519706649,-1.21648141235704,1.9136025361189));
#293=CARTESIAN_POINT('',(-0.0432374205176286,-1.21648141235704,1.9136025361189));
#294=CARTESIAN_POINT('',(-3.12382003810175,-1.21648141235704,1.9136025361189));
#295=CARTESIAN_POINT('',(-3.12382003810175,1.86410120522709,1.9136025361189));
#296=CARTESIAN_POINT('',(-0.0432374205176286,1.86410120522709,1.9136025361189));
#297=CARTESIAN_POINT('',(-0.0432374205176286,0.948809896435027,1.91360253611882));
#298=CARTESIAN_POINT('',(1.20676257948237,0.948809896435027,1.91360253611882));
#299=CARTESIAN_POINT('',(1.20676257948237,-0.301190103564975,1.91360253611882));
#300=CARTESIAN_POINT('',(-0.0432374205176286,-0.301190103564975,1.91360253611882));
#301=CARTESIAN_POINT('',(-1.29323742051763,-0.301190103564975,1.91360253611882));
#302=CARTESIAN_POINT('',(-1.29323742051763,0.948809896435027,1.91360253611882));
#303=CARTESIAN_POINT('',(-0.0432374205176286,0.948809896435027,1.91360253611882));
#311=SURFACE_STYLE_FILL_AREA(#390);
#312=ORIENTED_EDGE('',*,*,#391,.F.);
#313=ORIENTED_EDGE('',*,*,#392,.T.);
#314=CARTESIAN_POINT('',(-0.0432374205176286,0.323809896435026,-0.648897463881124));
#315=DIRECTION('',(0.0,-6.12323399573677E-17,-1.0));
#316=DIRECTION('',(0.0,1.0,-6.12323399573677E-17));
#317=SURFACE_STYLE_FILL_AREA(#393);
#318=ORIENTED_EDGE('',*,*,#394,.F.);
#319=ORIENTED_EDGE('',*,*,#395,.T.);
#320=CARTESIAN_POINT('',(-0.0432374205176286,0.323809896435027,2.41360253611741));
#321=DIRECTION('',(0.0,0.0,1.0));
#322=DIRECTION('',(1.0,0.0,0.0));
#323=SURFACE_STYLE_FILL_AREA(#396);
#324=ORIENTED_EDGE('',*,*,#397,.F.);
#325=ORIENTED_EDGE('',*,*,#395,.F.);
#326=CARTESIAN_POINT('',(-0.0432374205176286,0.323809896435027,2.36360253611741));
#327=DIRECTION('',(0.0,0.0,1.0));
#328=DIRECTION('',(1.0,0.0,0.0));
#329=SURFACE_STYLE_FILL_AREA(#398);
#330=ORIENTED_EDGE('',*,*,#397,.T.);
#331=ORIENTED_EDGE('',*,*,#399,.T.);
#332=CARTESIAN_POINT('',(-0.0432374205176286,0.323809896435027,2.41360253611741));
#333=DIRECTION('',(0.0,0.0,-1.0));
#334=DIRECTION('',(-1.0,0.0,0.0));
#335=SURFACE_STYLE_FILL_AREA(#400);
#336=ORIENTED_EDGE('',*,*,#401,.T.);
#337=ORIENTED_EDGE('',*,*,#402,.T.);
#338=CARTESIAN_POINT('',(-0.0432374205176286,0.323809896435026,-0.648897463881124));
#339=DIRECTION('',(0.0,-6.12323399573677E-17,-1.0));
#340=DIRECTION('',(0.0,1.0,-6.12323399573677E-17));
#341=SURFACE_STYLE_FILL_AREA(#403);
#342=ORIENTED_EDGE('',*,*,#404,.F.);
#343=ORIENTED_EDGE('',*,*,#391,.T.);
#344=CARTESIAN_POINT('',(-0.0432374205176286,0.323809896435026,-0.648897463881124));
#345=DIRECTION('',(0.0,-6.12323399573677E-17,-1.0));
#346=DIRECTION('',(0.0,1.0,-6.12323399573677E-17));
#347=SURFACE_STYLE_FILL_AREA(#405);
#348=ORIENTED_EDGE('',*,*,#402,.F.);
#349=ORIENTED_EDGE('',*,*,#406,.F.);
#350=CARTESIAN_POINT('',(-0.0432374205176286,0.323809896435026,-0.648897463881124));
#351=DIRECTION('',(0.0,-6.12323399573677E-17,-1.0));
#352=DIRECTION('',(0.0,1.0,-6.12323399573677E-17));
#353=SURFACE_STYLE_FILL_AREA(#407);
#354=ORIENTED_EDGE('',*,*,#408,.T.);
#355=ORIENTED_EDGE('',*,*,#401,.F.);
#356=SURFACE_STYLE_FILL_AREA(#409);
#357=ORIENTED_EDGE('',*,*,#406,.T.);
#358=ORIENTED_EDGE('',*,*,#410,.F.);
#359=SURFACE_STYLE_FILL_AREA(#411);
#360=ORIENTED_EDGE('',*,*,#404,.T.);
#361=ORIENTED_EDGE('',*,*,#412,.F.);
#362=CARTESIAN_POINT('',(-0.0432374205176286,0.323809896435025,-16.0493974638812));
#363=DIRECTION('',(0.0,-6.12323399573677E-17,-1.0));
#364=DIRECTION('',(0.0,1.0,-6.12323399573677E-17));
#365=SURFACE_STYLE_FILL_AREA(#413);
#366=ORIENTED_EDGE('',*,*,#412,.T.);
#367=CARTESIAN_POINT('',(-0.0432374205176004,0.323809896435025,-16.2363974638812));
#368=DIRECTION('',(0.0,-6.12323399573677E-17,-1.0));
#369=DIRECTION('',(0.0,1.0,-6.12323399573677E-17));
#370=SURFACE_STYLE_FILL_AREA(#414);
#371=ORIENTED_EDGE('',*,*,#408,.F.);
#372=CARTESIAN_POINT('',(0.581762579482405,0.323809896435025,-15.736397463881));
#373=DIRECTION('',(0.0,6.12323399573677E-17,1.0));
#374=DIRECTION('',(0.0,-1.0,6.12323399573677E-17));
#375=SURFACE_STYLE_FILL_AREA(#415);
#376=ORIENTED_EDGE('',*,*,#416,.F.);
#377=ORIENTED_EDGE('',*,*,#394,.T.);
#378=CARTESIAN_POINT('',(-0.0432374205176286,0.323809896435026,2.41360253611741));
#379=DIRECTION('',(0.0,-6.12323399573677E-17,1.0));
#380=DIRECTION('',(0.0,1.0,6.12323399573677E-17));
#381=SURFACE_STYLE_FILL_AREA(#417);
#382=ORIENTED_EDGE('',*,*,#416,.T.);
#383=ORIENTED_EDGE('',*,*,#410,.T.);
#384=CARTESIAN_POINT('',(-0.0432374205176286,0.323809896435026,1.41360253611862));
#385=DIRECTION('',(0.0,-6.12323399573677E-17,-1.0));
#386=DIRECTION('',(0.0,1.0,-6.12323399573677E-17));
#387=SURFACE_STYLE_FILL_AREA(#418);
#388=ORIENTED_EDGE('',*,*,#399,.F.);
#389=ORIENTED_EDGE('',*,*,#392,.F.);
#390=FILL_AREA_STYLE('',(#419));
#391=EDGE_CURVE('',#420,#420,#421,.F.);
#392=EDGE_CURVE('',#422,#422,#423,.T.);
#393=FILL_AREA_STYLE('',(#424));
#394=EDGE_CURVE('',#425,#425,#426,.T.);
#395=EDGE_CURVE('',#427,#427,#428,.T.);
#396=FILL_AREA_STYLE('',(#429));
#397=EDGE_CURVE('',#430,#430,#431,.F.);
#398=FILL_AREA_STYLE('',(#432));
#399=EDGE_CURVE('',#433,#433,#434,.T.);
#400=FILL_AREA_STYLE('',(#435));
#401=EDGE_CURVE('',#436,#436,#437,.T.);
#402=EDGE_CURVE('',#438,#438,#439,.T.);
#403=FILL_AREA_STYLE('',(#440));
#404=EDGE_CURVE('',#441,#441,#442,.T.);
#405=FILL_AREA_STYLE('',(#443));
#406=EDGE_CURVE('',#444,#444,#445,.T.);
#407=FILL_AREA_STYLE('',(#446));
#408=EDGE_CURVE('',#447,#447,#448,.T.);
#409=FILL_AREA_STYLE('',(#449));
#410=EDGE_CURVE('',#450,#450,#451,.T.);
#411=FILL_AREA_STYLE('',(#452));
#412=EDGE_CURVE('',#453,#453,#454,.T.);
#413=FILL_AREA_STYLE('',(#455));
#414=FILL_AREA_STYLE('',(#456));
#415=FILL_AREA_STYLE('',(#457));
#416=EDGE_CURVE('',#458,#458,#459,.T.);
#417=FILL_AREA_STYLE('',(#460));
#418=FILL_AREA_STYLE('',(#461));
#419=FILL_AREA_STYLE_COLOUR('',#462);
#420=VERTEX_POINT('',#463);
#421=CIRCLE('',#464,2.1875);
#422=VERTEX_POINT('',#465);
#423=CIRCLE('',#466,2.1875);
#424=FILL_AREA_STYLE_COLOUR('',#467);
#425=VERTEX_POINT('',#468);
#426=CIRCLE('',#469,0.34375);
#427=VERTEX_POINT('',#470);
#428=CIRCLE('',#471,0.575);
#429=FILL_AREA_STYLE_COLOUR('',#472);
#430=VERTEX_POINT('',#473);
#431=CIRCLE('',#474,0.625);
#432=FILL_AREA_STYLE_COLOUR('',#475);
#433=VERTEX_POINT('',#476);
#434=CIRCLE('',#477,0.625);
#435=FILL_AREA_STYLE_COLOUR('',#478);
#436=VERTEX_POINT('',#479);
#437=CIRCLE('',#480,1.68749999999978);
#438=VERTEX_POINT('',#481);
#439=CIRCLE('',#482,1.68749999999978);
#440=FILL_AREA_STYLE_COLOUR('',#483);
#441=VERTEX_POINT('',#484);
#442=CIRCLE('',#485,2.18749999999997);
#443=FILL_AREA_STYLE_COLOUR('',#486);
#444=VERTEX_POINT('',#487);
#445=CIRCLE('',#488,1.68749999999978);
#446=FILL_AREA_STYLE_COLOUR('',#489);
#447=VERTEX_POINT('',#490);
#448=CIRCLE('',#491,0.625000000000034);
#449=FILL_AREA_STYLE_COLOUR('',#492);
#450=VERTEX_POINT('',#493);
#451=CIRCLE('',#494,0.625000000000032);
#452=FILL_AREA_STYLE_COLOUR('',#495);
#453=VERTEX_POINT('',#496);
#454=CIRCLE('',#497,2.00049999999997);
#455=FILL_AREA_STYLE_COLOUR('',#498);
#456=FILL_AREA_STYLE_COLOUR('',#499);
#457=FILL_AREA_STYLE_COLOUR('',#500);
#458=VERTEX_POINT('',#501);
#459=CIRCLE('',#502,0.34375);
#460=FILL_AREA_STYLE_COLOUR('',#503);
#461=FILL_AREA_STYLE_COLOUR('',#504);
#462=COLOUR_RGB('',0.0,1.0,0.0);
#463=CARTESIAN_POINT('',(2.14426257948236,0.323809896435026,-0.648897463881124));
#464=AXIS2_PLACEMENT_3D('',#505,#506,#507);
#465=CARTESIAN_POINT('',(-0.0432374205176286,2.51130989643503,0.351102536118874));
#466=AXIS2_PLACEMENT_3D('',#508,#509,#510);
#467=COLOUR_RGB('',0.901960790157318,0.82745099067688,0.776470601558685);
#468=CARTESIAN_POINT('',(-0.0432374205176286,0.667559896435026,2.41360253611741));
#469=AXIS2_PLACEMENT_3D('',#511,#512,#513);
#470=CARTESIAN_POINT('',(0.531762579482372,0.323809896435027,2.41360253611741));
#471=AXIS2_PLACEMENT_3D('',#514,#515,#516);
#472=COLOUR_RGB('',0.901960790157318,0.82745099067688,0.776470601558685);
#473=CARTESIAN_POINT('',(0.581762579482372,0.323809896435027,2.36360253611741));
#474=AXIS2_PLACEMENT_3D('',#517,#518,#519);
#475=COLOUR_RGB('',0.901960790157318,0.82745099067688,0.776470601558685);
#476=CARTESIAN_POINT('',(0.581762579482372,0.323809896435027,1.91360253611882));
#477=AXIS2_PLACEMENT_3D('',#520,#521,#522);
#478=COLOUR_RGB('',0.901960790157318,0.82745099067688,0.776470601558685);
#479=CARTESIAN_POINT('',(-0.0432374205176286,2.0113098964348,-14.6738974638812));
#480=AXIS2_PLACEMENT_3D('',#523,#524,#525);
#481=CARTESIAN_POINT('',(1.64426257948215,0.323809896435026,-0.648897463881124));
#482=AXIS2_PLACEMENT_3D('',#526,#527,#528);
#483=COLOUR_RGB('',0.901960790157318,0.82745099067688,0.776470601558685);
#484=CARTESIAN_POINT('',(-0.0432374205176286,2.511309896435,-16.0493974638812));
#485=AXIS2_PLACEMENT_3D('',#529,#530,#531);
#486=COLOUR_RGB('',0.901960790157318,0.82745099067688,0.776470601558685);
#487=CARTESIAN_POINT('',(-0.0432374205176286,2.0113098964348,0.351102536118874));
#488=AXIS2_PLACEMENT_3D('',#532,#533,#534);
#489=COLOUR_RGB('',0.901960790157318,0.82745099067688,0.776470601558685);
#490=CARTESIAN_POINT('',(-0.0432374205176286,0.948809896435059,-15.736397463881));
#491=AXIS2_PLACEMENT_3D('',#535,#536,#537);
#492=COLOUR_RGB('',0.901960790157318,0.82745099067688,0.776470601558685);
#493=CARTESIAN_POINT('',(-0.0432374205176286,0.948809896435057,1.41360253611862));
#494=AXIS2_PLACEMENT_3D('',#538,#539,#540);
#495=COLOUR_RGB('',0.901960790157318,0.82745099067688,0.776470601558685);
#496=CARTESIAN_POINT('',(-0.0432374205176286,2.324309896435,-16.2363974638812));
#497=AXIS2_PLACEMENT_3D('',#541,#542,#543);
#498=COLOUR_RGB('',0.901960790157318,0.82745099067688,0.776470601558685);
#499=COLOUR_RGB('',0.901960790157318,0.82745099067688,0.776470601558685);
#500=COLOUR_RGB('',1.0,1.0,1.0);
#501=CARTESIAN_POINT('',(-0.0432374205176286,0.667559896435026,1.41360253611741));
#502=AXIS2_PLACEMENT_3D('',#544,#545,#546);
#503=COLOUR_RGB('',0.901960790157318,0.82745099067688,0.776470601558685);
#504=COLOUR_RGB('',0.0,1.0,0.0);
#505=CARTESIAN_POINT('',(-0.0432374205176286,0.323809896435026,-0.648897463881124));
#506=DIRECTION('',(0.0,0.0,1.0));
#507=DIRECTION('',(1.0,0.0,0.0));
#508=CARTESIAN_POINT('',(-0.0432374205176286,0.323809896435026,0.351102536118874));
#509=DIRECTION('',(0.0,-6.12323399573677E-17,-1.0));
#510=DIRECTION('',(0.0,1.0,-6.12323399573677E-17));
#511=CARTESIAN_POINT('',(-0.0432374205176286,0.323809896435026,2.41360253611741));
#512=DIRECTION('',(0.0,-6.12323399573677E-17,1.0));
#513=DIRECTION('',(0.0,1.0,6.12323399573677E-17));
#514=CARTESIAN_POINT('',(-0.0432374205176286,0.323809896435027,2.41360253611741));
#515=DIRECTION('',(0.0,0.0,1.0));
#516=DIRECTION('',(1.0,0.0,0.0));
#517=CARTESIAN_POINT('',(-0.0432374205176286,0.323809896435027,2.36360253611741));
#518=DIRECTION('',(0.0,0.0,1.0));
#519=DIRECTION('',(1.0,0.0,0.0));
#520=CARTESIAN_POINT('',(-0.0432374205176286,0.323809896435027,1.91360253611882));
#521=DIRECTION('',(0.0,0.0,1.0));
#522=DIRECTION('',(1.0,0.0,0.0));
#523=CARTESIAN_POINT('',(-0.0432374205176286,0.323809896435025,-14.6738974638812));
#524=DIRECTION('',(0.0,-6.12323399573677E-17,-1.0));
#525=DIRECTION('',(0.0,1.0,-6.12323399573677E-17));
#526=CARTESIAN_POINT('',(-0.0432374205176286,0.323809896435026,-0.648897463881124));
#527=DIRECTION('',(0.0,0.0,1.0));
#528=DIRECTION('',(1.0,0.0,0.0));
#529=CARTESIAN_POINT('',(-0.0432374205176286,0.323809896435025,-16.0493974638812));
#530=DIRECTION('',(0.0,-6.12323399573677E-17,-1.0));
#531=DIRECTION('',(0.0,1.0,-6.12323399573677E-17));
#532=CARTESIAN_POINT('',(-0.0432374205176286,0.323809896435026,0.351102536118874));
#533=DIRECTION('',(0.0,-6.12323399573677E-17,-1.0));
#534=DIRECTION('',(0.0,1.0,-6.12323399573677E-17));
#535=CARTESIAN_POINT('',(-0.0432374205176286,0.323809896435025,-15.736397463881));
#536=DIRECTION('',(0.0,-6.12323399573677E-17,-1.0));
#537=DIRECTION('',(0.0,1.0,-6.12323399573677E-17));
#538=CARTESIAN_POINT('',(-0.0432374205176286,0.323809896435026,1.41360253611862));
#539=DIRECTION('',(0.0,-6.12323399573677E-17,-1.0));
#540=DIRECTION('',(0.0,1.0,-6.12323399573677E-17));
#541=CARTESIAN_POINT('',(-0.0432374205176286,0.323809896435025,-16.2363974638812));
#542=DIRECTION('',(0.0,-6.12323399573677E-17,-1.0));
#543=DIRECTION('',(0.0,1.0,-6.12323399573677E-17));
#544=CARTESIAN_POINT('',(-0.0432374205176286,0.323809896435026,1.41360253611741));
#545=DIRECTION('',(0.0,-6.12323399573677E-17,1.0));
#546=DIRECTION('',(0.0,1.0,6.12323399573677E-17));
ENDSEC;
END-ISO-10303-21;
