ISO-10303-21;
HEADER;
FILE_DESCRIPTION(('STEP AP214'),'1');
FILE_NAME('00CYL-1004-00 (AL-180 Aluminum Cylinder) _DV_.stp','2021-02-04T01:18:27',(' '),(' '),'Spatial InterOp 3D',' ',' ');
FILE_SCHEMA(('AUTOMOTIVE_DESIGN { 1 0 10303 214 1 1 1 1 }'));
ENDSEC;
DATA;
#1=MECHANICAL_DESIGN_GEOMETRIC_PRESENTATION_REPRESENTATION(' ',(#10,#11,#12,#13,#14,#15,#16,#17,#18,#19,#20,#21,#22,#23,#24),#6);
#2=PRODUCT_DEFINITION_CONTEXT('',#25,'design');
#3=APPLICATION_PROTOCOL_DEFINITION('INTERNATIONAL STANDARD','automotive_design',1994,#25);
#4=PRODUCT_CATEGORY_RELATIONSHIP('NONE','NONE',#26,#27);
#5=SHAPE_DEFINITION_REPRESENTATION(#28,#29);
#6= (GEOMETRIC_REPRESENTATION_CONTEXT(3)GLOBAL_UNCERTAINTY_ASSIGNED_CONTEXT((#32))GLOBAL_UNIT_ASSIGNED_CONTEXT((#34,#35,#36))REPRESENTATION_CONTEXT('NONE','WORKSPACE'));
#10=STYLED_ITEM('',(#38),#39);
#11=STYLED_ITEM('',(#40),#41);
#12=STYLED_ITEM('',(#42),#43);
#13=STYLED_ITEM('',(#44),#45);
#14=STYLED_ITEM('',(#46),#47);
#15=STYLED_ITEM('',(#48),#49);
#16=STYLED_ITEM('',(#50),#51);
#17=STYLED_ITEM('',(#52),#53);
#18=STYLED_ITEM('',(#54),#55);
#19=STYLED_ITEM('',(#56),#57);
#20=STYLED_ITEM('',(#58),#59);
#21=STYLED_ITEM('',(#60),#61);
#22=STYLED_ITEM('',(#62),#63);
#23=STYLED_ITEM('',(#64),#65);
#24=STYLED_ITEM('',(#66),#67);
#25=APPLICATION_CONTEXT(' ');
#26=PRODUCT_CATEGORY('part','NONE');
#27=PRODUCT_RELATED_PRODUCT_CATEGORY('detail',' ',(#68));
#28=PRODUCT_DEFINITION_SHAPE('NONE','NONE',#69);
#29=ADVANCED_BREP_SHAPE_REPRESENTATION('00CYL-1004-00 (AL-180 Aluminum Cylinder) [DV]',(#70,#71),#6);
#32=UNCERTAINTY_MEASURE_WITH_UNIT(LENGTH_MEASURE(3.93700787401575E-05),#34,'','');
#34= (CONVERSION_BASED_UNIT('INCH',#74)LENGTH_UNIT()NAMED_UNIT(#77));
#35= (NAMED_UNIT(#79)PLANE_ANGLE_UNIT()SI_UNIT($,.RADIAN.));
#36= (NAMED_UNIT(#79)SOLID_ANGLE_UNIT()SI_UNIT($,.STERADIAN.));
#38=PRESENTATION_STYLE_ASSIGNMENT((#85));
#39=ADVANCED_FACE('',(#86,#87),#88,.T.);
#40=PRESENTATION_STYLE_ASSIGNMENT((#89));
#41=ADVANCED_FACE('',(#90,#91),#92,.T.);
#42=PRESENTATION_STYLE_ASSIGNMENT((#93));
#43=ADVANCED_FACE('',(#94,#95),#96,.T.);
#44=PRESENTATION_STYLE_ASSIGNMENT((#97));
#45=ADVANCED_FACE('',(#98,#99),#100,.T.);
#46=PRESENTATION_STYLE_ASSIGNMENT((#101));
#47=ADVANCED_FACE('',(#102,#103),#104,.F.);
#48=PRESENTATION_STYLE_ASSIGNMENT((#105));
#49=ADVANCED_FACE('',(#106,#107),#108,.T.);
#50=PRESENTATION_STYLE_ASSIGNMENT((#109));
#51=ADVANCED_FACE('',(#110,#111),#112,.F.);
#52=PRESENTATION_STYLE_ASSIGNMENT((#113));
#53=ADVANCED_FACE('',(#114,#115),#116,.F.);
#54=PRESENTATION_STYLE_ASSIGNMENT((#117));
#55=ADVANCED_FACE('',(#118,#119),#120,.F.);
#56=PRESENTATION_STYLE_ASSIGNMENT((#121));
#57=ADVANCED_FACE('',(#122,#123),#124,.T.);
#58=PRESENTATION_STYLE_ASSIGNMENT((#125));
#59=ADVANCED_FACE('',(#126),#127,.T.);
#60=PRESENTATION_STYLE_ASSIGNMENT((#128));
#61=ADVANCED_FACE('',(#129),#130,.T.);
#62=PRESENTATION_STYLE_ASSIGNMENT((#131));
#63=ADVANCED_FACE('',(#132,#133),#134,.F.);
#64=PRESENTATION_STYLE_ASSIGNMENT((#135));
#65=ADVANCED_FACE('',(#136,#137),#138,.T.);
#66=PRESENTATION_STYLE_ASSIGNMENT((#139));
#67=ADVANCED_FACE('',(#140,#141),#142,.T.);
#68=PRODUCT('00CYL-1004-00 (AL-180 Aluminum Cylinder) [DV]','00CYL-1004-00 (AL-180 Aluminum Cylinder) [DV]','PART-00CYL-1004-00 (AL-180 Aluminum Cylinder) [DV]-DESC',(#143));
#69=PRODUCT_DEFINITION('','NONE',#144,#2);
#70=MANIFOLD_SOLID_BREP('00CYL-1004-00 (AL-180 Aluminum Cylinder) [DV]',#145);
#71=AXIS2_PLACEMENT_3D('',#146,#147,#148);
#74=LENGTH_MEASURE_WITH_UNIT(LENGTH_MEASURE(25.4),#149);
#77=DIMENSIONAL_EXPONENTS(1.0,0.0,0.0,0.0,0.0,0.0,0.0);
#79=DIMENSIONAL_EXPONENTS(0.0,0.0,0.0,0.0,0.0,0.0,0.0);
#85=SURFACE_STYLE_USAGE(.BOTH.,#150);
#86=FACE_OUTER_BOUND('',#151,.T.);
#87=FACE_OUTER_BOUND('',#152,.T.);
#88=CYLINDRICAL_SURFACE('',#153,1.59999999999994);
#89=SURFACE_STYLE_USAGE(.BOTH.,#154);
#90=FACE_BOUND('',#155,.T.);
#91=FACE_OUTER_BOUND('',#156,.T.);
#92=PLANE('',#157);
#93=SURFACE_STYLE_USAGE(.BOTH.,#158);
#94=FACE_OUTER_BOUND('',#159,.T.);
#95=FACE_OUTER_BOUND('',#160,.T.);
#96=TOROIDAL_SURFACE('',#161,0.575,0.05);
#97=SURFACE_STYLE_USAGE(.BOTH.,#162);
#98=FACE_OUTER_BOUND('',#163,.T.);
#99=FACE_OUTER_BOUND('',#164,.T.);
#100=CYLINDRICAL_SURFACE('',#165,0.625);
#101=SURFACE_STYLE_USAGE(.BOTH.,#166);
#102=FACE_OUTER_BOUND('',#167,.T.);
#103=FACE_OUTER_BOUND('',#168,.T.);
#104=CYLINDRICAL_SURFACE('',#169,1.09999999999993);
#105=SURFACE_STYLE_USAGE(.BOTH.,#170);
#106=FACE_OUTER_BOUND('',#171,.T.);
#107=FACE_OUTER_BOUND('',#172,.T.);
#108=CYLINDRICAL_SURFACE('',#173,1.59999999999994);
#109=SURFACE_STYLE_USAGE(.BOTH.,#174);
#110=FACE_OUTER_BOUND('',#175,.T.);
#111=FACE_OUTER_BOUND('',#176,.T.);
#112=CYLINDRICAL_SURFACE('',#177,1.09999999999993);
#113=SURFACE_STYLE_USAGE(.BOTH.,#178);
#114=FACE_OUTER_BOUND('',#179,.T.);
#115=FACE_OUTER_BOUND('',#180,.T.);
#116=TOROIDAL_SURFACE('',#181,0.625000000000114,0.474999999999816);
#117=SURFACE_STYLE_USAGE(.BOTH.,#182);
#118=FACE_OUTER_BOUND('',#183,.T.);
#119=FACE_OUTER_BOUND('',#184,.T.);
#120=TOROIDAL_SURFACE('',#185,0.62500000000013,0.474999999999802);
#121=SURFACE_STYLE_USAGE(.BOTH.,#186);
#122=FACE_OUTER_BOUND('',#187,.T.);
#123=FACE_OUTER_BOUND('',#188,.T.);
#124=TOROIDAL_SURFACE('',#189,1.41299999999987,0.187);
#125=SURFACE_STYLE_USAGE(.BOTH.,#190);
#126=FACE_OUTER_BOUND('',#191,.T.);
#127=PLANE('',#192);
#128=SURFACE_STYLE_USAGE(.BOTH.,#193);
#129=FACE_OUTER_BOUND('',#194,.T.);
#130=PLANE('',#195);
#131=SURFACE_STYLE_USAGE(.BOTH.,#196);
#132=FACE_OUTER_BOUND('',#197,.T.);
#133=FACE_OUTER_BOUND('',#198,.T.);
#134=CYLINDRICAL_SURFACE('',#199,0.34375);
#135=SURFACE_STYLE_USAGE(.BOTH.,#200);
#136=FACE_BOUND('',#201,.T.);
#137=FACE_OUTER_BOUND('',#202,.T.);
#138=PLANE('',#203);
#139=SURFACE_STYLE_USAGE(.BOTH.,#204);
#140=FACE_OUTER_BOUND('',#205,.T.);
#141=FACE_OUTER_BOUND('',#206,.T.);
#142=(B_SPLINE_SURFACE(3,3,((#208,#209,#210,#211,#212,#213,#214),(#215,#216,#217,#218,#219,#220,#221),(#222,#223,#224,#225,#226,#227,#228),(#229,#230,#231,#232,#233,#234,#235)),.UNSPECIFIED.,.F.,.T.,.F.)B_SPLINE_SURFACE_WITH_KNOTS((4,4),(4,3,4),(0.0,6.28318530717959),(-1.57079632679512,-0.785398163397447,2.26485497023532E-13),.UNSPECIFIED.)RATIONAL_B_SPLINE_SURFACE(((1.0,0.333333333333333,0.333333333333333,1.0,0.333333333333333,0.333333333333333,1.0),(0.804737854124259,0.268245951374753,0.268245951374753,0.804737854124259,0.268245951374753,0.268245951374753,0.804737854124259),(0.804737854124259,0.268245951374753,0.268245951374753,0.804737854124259,0.268245951374753,0.268245951374753,0.804737854124259),(1.0,0.333333333333333,0.333333333333333,1.0,0.333333333333333,0.333333333333333,1.0)))BOUNDED_SURFACE()REPRESENTATION_ITEM('')GEOMETRIC_REPRESENTATION_ITEM()SURFACE());
#143=PRODUCT_CONTEXT('',#25,'mechanical');
#144=PRODUCT_DEFINITION_FORMATION_WITH_SPECIFIED_SOURCE(' ','NONE',#68,.NOT_KNOWN.);
#145=CLOSED_SHELL('',(#39,#41,#43,#45,#47,#49,#51,#53,#55,#57,#59,#61,#63,#65,#67));
#146=CARTESIAN_POINT('',(0.0,0.0,0.0));
#147=DIRECTION('',(0.0,0.0,1.0));
#148=DIRECTION('',(1.0,0.0,0.0));
#149= (NAMED_UNIT(#77)LENGTH_UNIT()SI_UNIT(.MILLI.,.METRE.));
#150=SURFACE_SIDE_STYLE('',(#243));
#151=EDGE_LOOP('',(#244));
#152=EDGE_LOOP('',(#245));
#153=AXIS2_PLACEMENT_3D('',#246,#247,#248);
#154=SURFACE_SIDE_STYLE('',(#249));
#155=EDGE_LOOP('',(#250));
#156=EDGE_LOOP('',(#251));
#157=AXIS2_PLACEMENT_3D('',#252,#253,#254);
#158=SURFACE_SIDE_STYLE('',(#255));
#159=EDGE_LOOP('',(#256));
#160=EDGE_LOOP('',(#257));
#161=AXIS2_PLACEMENT_3D('',#258,#259,#260);
#162=SURFACE_SIDE_STYLE('',(#261));
#163=EDGE_LOOP('',(#262));
#164=EDGE_LOOP('',(#263));
#165=AXIS2_PLACEMENT_3D('',#264,#265,#266);
#166=SURFACE_SIDE_STYLE('',(#267));
#167=EDGE_LOOP('',(#268));
#168=EDGE_LOOP('',(#269));
#169=AXIS2_PLACEMENT_3D('',#270,#271,#272);
#170=SURFACE_SIDE_STYLE('',(#273));
#171=EDGE_LOOP('',(#274));
#172=EDGE_LOOP('',(#275));
#173=AXIS2_PLACEMENT_3D('',#276,#277,#278);
#174=SURFACE_SIDE_STYLE('',(#279));
#175=EDGE_LOOP('',(#280));
#176=EDGE_LOOP('',(#281));
#177=AXIS2_PLACEMENT_3D('',#282,#283,#284);
#178=SURFACE_SIDE_STYLE('',(#285));
#179=EDGE_LOOP('',(#286));
#180=EDGE_LOOP('',(#287));
#181=AXIS2_PLACEMENT_3D('',#288,#289,#290);
#182=SURFACE_SIDE_STYLE('',(#291));
#183=EDGE_LOOP('',(#292));
#184=EDGE_LOOP('',(#293));
#185=AXIS2_PLACEMENT_3D('',#294,#295,#296);
#186=SURFACE_SIDE_STYLE('',(#297));
#187=EDGE_LOOP('',(#298));
#188=EDGE_LOOP('',(#299));
#189=AXIS2_PLACEMENT_3D('',#300,#301,#302);
#190=SURFACE_SIDE_STYLE('',(#303));
#191=EDGE_LOOP('',(#304));
#192=AXIS2_PLACEMENT_3D('',#305,#306,#307);
#193=SURFACE_SIDE_STYLE('',(#308));
#194=EDGE_LOOP('',(#309));
#195=AXIS2_PLACEMENT_3D('',#310,#311,#312);
#196=SURFACE_SIDE_STYLE('',(#313));
#197=EDGE_LOOP('',(#314));
#198=EDGE_LOOP('',(#315));
#199=AXIS2_PLACEMENT_3D('',#316,#317,#318);
#200=SURFACE_SIDE_STYLE('',(#319));
#201=EDGE_LOOP('',(#320));
#202=EDGE_LOOP('',(#321));
#203=AXIS2_PLACEMENT_3D('',#322,#323,#324);
#204=SURFACE_SIDE_STYLE('',(#325));
#205=EDGE_LOOP('',(#326));
#206=EDGE_LOOP('',(#327));
#208=CARTESIAN_POINT('',(-0.0432374205176286,1.92380989643503,0.351102536118874));
#209=CARTESIAN_POINT('',(3.15676257948237,1.92380989643503,0.351102536118874));
#210=CARTESIAN_POINT('',(3.15676257948237,-1.27619010356497,0.351102536118875));
#211=CARTESIAN_POINT('',(-0.0432374205176286,-1.27619010356497,0.351102536118875));
#212=CARTESIAN_POINT('',(-3.24323742051763,-1.27619010356497,0.351102536118875));
#213=CARTESIAN_POINT('',(-3.24323742051763,1.92380989643503,0.351102536118875));
#214=CARTESIAN_POINT('',(-0.0432374205176286,1.92380989643503,0.351102536118875));
#215=CARTESIAN_POINT('',(-0.0432374205176286,1.92380989643516,0.922244312805183));
#216=CARTESIAN_POINT('',(3.15676257948263,1.92380989643516,0.922244312805183));
#217=CARTESIAN_POINT('',(3.15676257948263,-1.2761901035651,0.922244312805183));
#218=CARTESIAN_POINT('',(-0.0432374205176286,-1.2761901035651,0.922244312805183));
#219=CARTESIAN_POINT('',(-3.24323742051789,-1.2761901035651,0.922244312805183));
#220=CARTESIAN_POINT('',(-3.24323742051789,1.92380989643516,0.922244312805183));
#221=CARTESIAN_POINT('',(-0.0432374205176286,1.92380989643516,0.922244312805183));
#222=CARTESIAN_POINT('',(-0.0432374205176286,1.51995167312133,1.326102536119));
#223=CARTESIAN_POINT('',(2.34904613285499,1.51995167312133,1.326102536119));
#224=CARTESIAN_POINT('',(2.34904613285499,-0.872331880251282,1.326102536119));
#225=CARTESIAN_POINT('',(-0.0432374205176286,-0.872331880251282,1.326102536119));
#226=CARTESIAN_POINT('',(-2.43552097389024,-0.872331880251282,1.326102536119));
#227=CARTESIAN_POINT('',(-2.43552097389024,1.51995167312133,1.326102536119));
#228=CARTESIAN_POINT('',(-0.0432374205176286,1.51995167312133,1.326102536119));
#229=CARTESIAN_POINT('',(-0.0432374205176286,0.948809896435026,1.32610253611888));
#230=CARTESIAN_POINT('',(1.20676257948237,0.948809896435026,1.32610253611888));
#231=CARTESIAN_POINT('',(1.20676257948237,-0.301190103564974,1.32610253611888));
#232=CARTESIAN_POINT('',(-0.0432374205176286,-0.301190103564974,1.32610253611888));
#233=CARTESIAN_POINT('',(-1.29323742051763,-0.301190103564974,1.32610253611888));
#234=CARTESIAN_POINT('',(-1.29323742051763,0.948809896435026,1.32610253611888));
#235=CARTESIAN_POINT('',(-0.0432374205176286,0.948809896435026,1.32610253611888));
#243=SURFACE_STYLE_FILL_AREA(#328);
#244=ORIENTED_EDGE('',*,*,#329,.F.);
#245=ORIENTED_EDGE('',*,*,#330,.T.);
#246=CARTESIAN_POINT('',(-0.0432374205176286,0.323809896435026,-0.648897463881124));
#247=DIRECTION('',(0.0,-6.12323399573677E-17,-1.0));
#248=DIRECTION('',(0.0,1.0,-6.12323399573677E-17));
#249=SURFACE_STYLE_FILL_AREA(#331);
#250=ORIENTED_EDGE('',*,*,#332,.F.);
#251=ORIENTED_EDGE('',*,*,#333,.T.);
#252=CARTESIAN_POINT('',(-0.0432374205176286,0.323809896435027,1.82610253611746));
#253=DIRECTION('',(0.0,0.0,1.0));
#254=DIRECTION('',(1.0,0.0,0.0));
#255=SURFACE_STYLE_FILL_AREA(#334);
#256=ORIENTED_EDGE('',*,*,#335,.F.);
#257=ORIENTED_EDGE('',*,*,#333,.F.);
#258=CARTESIAN_POINT('',(-0.0432374205176286,0.323809896435027,1.77610253611746));
#259=DIRECTION('',(0.0,0.0,1.0));
#260=DIRECTION('',(1.0,0.0,0.0));
#261=SURFACE_STYLE_FILL_AREA(#336);
#262=ORIENTED_EDGE('',*,*,#335,.T.);
#263=ORIENTED_EDGE('',*,*,#337,.T.);
#264=CARTESIAN_POINT('',(-0.0432374205176286,0.323809896435027,1.82610253611746));
#265=DIRECTION('',(0.0,0.0,-1.0));
#266=DIRECTION('',(-1.0,0.0,0.0));
#267=SURFACE_STYLE_FILL_AREA(#338);
#268=ORIENTED_EDGE('',*,*,#339,.T.);
#269=ORIENTED_EDGE('',*,*,#340,.T.);
#270=CARTESIAN_POINT('',(-0.0432374205176286,0.323809896435026,-0.648897463881124));
#271=DIRECTION('',(0.0,-6.12323399573677E-17,-1.0));
#272=DIRECTION('',(0.0,1.0,-6.12323399573677E-17));
#273=SURFACE_STYLE_FILL_AREA(#341);
#274=ORIENTED_EDGE('',*,*,#342,.F.);
#275=ORIENTED_EDGE('',*,*,#329,.T.);
#276=CARTESIAN_POINT('',(-0.0432374205176286,0.323809896435026,-0.648897463881124));
#277=DIRECTION('',(0.0,-6.12323399573677E-17,-1.0));
#278=DIRECTION('',(0.0,1.0,-6.12323399573677E-17));
#279=SURFACE_STYLE_FILL_AREA(#343);
#280=ORIENTED_EDGE('',*,*,#340,.F.);
#281=ORIENTED_EDGE('',*,*,#344,.F.);
#282=CARTESIAN_POINT('',(-0.0432374205176286,0.323809896435026,-0.648897463881124));
#283=DIRECTION('',(0.0,-6.12323399573677E-17,-1.0));
#284=DIRECTION('',(0.0,1.0,-6.12323399573677E-17));
#285=SURFACE_STYLE_FILL_AREA(#345);
#286=ORIENTED_EDGE('',*,*,#346,.T.);
#287=ORIENTED_EDGE('',*,*,#339,.F.);
#288=CARTESIAN_POINT('',(-0.0432374205176286,0.323809896435025,-10.9488974638811));
#289=DIRECTION('',(0.0,-6.12323399573677E-17,-1.0));
#290=DIRECTION('',(0.0,1.0,-6.12323399573677E-17));
#291=SURFACE_STYLE_FILL_AREA(#347);
#292=ORIENTED_EDGE('',*,*,#344,.T.);
#293=ORIENTED_EDGE('',*,*,#348,.F.);
#294=CARTESIAN_POINT('',(-0.0432374205176286,0.323809896435026,0.351102536118876));
#295=DIRECTION('',(0.0,-6.12323399573677E-17,-1.0));
#296=DIRECTION('',(0.0,1.0,-6.12323399573677E-17));
#297=SURFACE_STYLE_FILL_AREA(#349);
#298=ORIENTED_EDGE('',*,*,#342,.T.);
#299=ORIENTED_EDGE('',*,*,#350,.F.);
#300=CARTESIAN_POINT('',(-0.0432374205176286,0.323809896435025,-11.7368974638811));
#301=DIRECTION('',(0.0,-6.12323399573677E-17,-1.0));
#302=DIRECTION('',(0.0,1.0,-6.12323399573677E-17));
#303=SURFACE_STYLE_FILL_AREA(#351);
#304=ORIENTED_EDGE('',*,*,#350,.T.);
#305=CARTESIAN_POINT('',(-0.0432374205174999,0.323809896435025,-11.9238974638811));
#306=DIRECTION('',(0.0,-6.12323399573677E-17,-1.0));
#307=DIRECTION('',(0.0,1.0,-6.12323399573677E-17));
#308=SURFACE_STYLE_FILL_AREA(#352);
#309=ORIENTED_EDGE('',*,*,#346,.F.);
#310=CARTESIAN_POINT('',(0.581762579482501,0.323809896435025,-11.4238974638809));
#311=DIRECTION('',(0.0,6.12323399573677E-17,1.0));
#312=DIRECTION('',(0.0,-1.0,6.12323399573677E-17));
#313=SURFACE_STYLE_FILL_AREA(#353);
#314=ORIENTED_EDGE('',*,*,#354,.F.);
#315=ORIENTED_EDGE('',*,*,#332,.T.);
#316=CARTESIAN_POINT('',(-0.0432374205176286,0.323809896435026,1.82610253611746));
#317=DIRECTION('',(0.0,-6.12323399573677E-17,1.0));
#318=DIRECTION('',(0.0,1.0,6.12323399573677E-17));
#319=SURFACE_STYLE_FILL_AREA(#355);
#320=ORIENTED_EDGE('',*,*,#354,.T.);
#321=ORIENTED_EDGE('',*,*,#348,.T.);
#322=CARTESIAN_POINT('',(-0.0432374205176286,0.323809896435026,0.826102536118677));
#323=DIRECTION('',(0.0,-6.12323399573677E-17,-1.0));
#324=DIRECTION('',(0.0,1.0,-6.12323399573677E-17));
#325=SURFACE_STYLE_FILL_AREA(#356);
#326=ORIENTED_EDGE('',*,*,#337,.F.);
#327=ORIENTED_EDGE('',*,*,#330,.F.);
#328=FILL_AREA_STYLE('',(#357));
#329=EDGE_CURVE('',#358,#358,#359,.F.);
#330=EDGE_CURVE('',#360,#360,#361,.T.);
#331=FILL_AREA_STYLE('',(#362));
#332=EDGE_CURVE('',#363,#363,#364,.T.);
#333=EDGE_CURVE('',#365,#365,#366,.T.);
#334=FILL_AREA_STYLE('',(#367));
#335=EDGE_CURVE('',#368,#368,#369,.F.);
#336=FILL_AREA_STYLE('',(#370));
#337=EDGE_CURVE('',#371,#371,#372,.T.);
#338=FILL_AREA_STYLE('',(#373));
#339=EDGE_CURVE('',#374,#374,#375,.T.);
#340=EDGE_CURVE('',#376,#376,#377,.T.);
#341=FILL_AREA_STYLE('',(#378));
#342=EDGE_CURVE('',#379,#379,#380,.T.);
#343=FILL_AREA_STYLE('',(#381));
#344=EDGE_CURVE('',#382,#382,#383,.T.);
#345=FILL_AREA_STYLE('',(#384));
#346=EDGE_CURVE('',#385,#385,#386,.T.);
#347=FILL_AREA_STYLE('',(#387));
#348=EDGE_CURVE('',#388,#388,#389,.T.);
#349=FILL_AREA_STYLE('',(#390));
#350=EDGE_CURVE('',#391,#391,#392,.T.);
#351=FILL_AREA_STYLE('',(#393));
#352=FILL_AREA_STYLE('',(#394));
#353=FILL_AREA_STYLE('',(#395));
#354=EDGE_CURVE('',#396,#396,#397,.T.);
#355=FILL_AREA_STYLE('',(#398));
#356=FILL_AREA_STYLE('',(#399));
#357=FILL_AREA_STYLE_COLOUR('',#400);
#358=VERTEX_POINT('',#401);
#359=CIRCLE('',#402,1.59999999999994);
#360=VERTEX_POINT('',#403);
#361=CIRCLE('',#404,1.6);
#362=FILL_AREA_STYLE_COLOUR('',#405);
#363=VERTEX_POINT('',#406);
#364=CIRCLE('',#407,0.34375);
#365=VERTEX_POINT('',#408);
#366=CIRCLE('',#409,0.575);
#367=FILL_AREA_STYLE_COLOUR('',#410);
#368=VERTEX_POINT('',#411);
#369=CIRCLE('',#412,0.625);
#370=FILL_AREA_STYLE_COLOUR('',#413);
#371=VERTEX_POINT('',#414);
#372=CIRCLE('',#415,0.625);
#373=FILL_AREA_STYLE_COLOUR('',#416);
#374=VERTEX_POINT('',#417);
#375=CIRCLE('',#418,1.09999999999993);
#376=VERTEX_POINT('',#419);
#377=CIRCLE('',#420,1.09999999999993);
#378=FILL_AREA_STYLE_COLOUR('',#421);
#379=VERTEX_POINT('',#422);
#380=CIRCLE('',#423,1.59999999999987);
#381=FILL_AREA_STYLE_COLOUR('',#424);
#382=VERTEX_POINT('',#425);
#383=CIRCLE('',#426,1.09999999999993);
#384=FILL_AREA_STYLE_COLOUR('',#427);
#385=VERTEX_POINT('',#428);
#386=CIRCLE('',#429,0.62500000000013);
#387=FILL_AREA_STYLE_COLOUR('',#430);
#388=VERTEX_POINT('',#431);
#389=CIRCLE('',#432,0.625000000000128);
#390=FILL_AREA_STYLE_COLOUR('',#433);
#391=VERTEX_POINT('',#434);
#392=CIRCLE('',#435,1.41299999999987);
#393=FILL_AREA_STYLE_COLOUR('',#436);
#394=FILL_AREA_STYLE_COLOUR('',#437);
#395=FILL_AREA_STYLE_COLOUR('',#438);
#396=VERTEX_POINT('',#439);
#397=CIRCLE('',#440,0.34375);
#398=FILL_AREA_STYLE_COLOUR('',#441);
#399=FILL_AREA_STYLE_COLOUR('',#442);
#400=COLOUR_RGB('',0.0,1.0,0.0);
#401=CARTESIAN_POINT('',(1.55676257948231,0.323809896435026,-0.648897463881124));
#402=AXIS2_PLACEMENT_3D('',#443,#444,#445);
#403=CARTESIAN_POINT('',(-0.0432374205176286,1.92380989643503,0.351102536118874));
#404=AXIS2_PLACEMENT_3D('',#446,#447,#448);
#405=COLOUR_RGB('',0.901960790157318,0.82745099067688,0.776470601558685);
#406=CARTESIAN_POINT('',(-0.0432374205176286,0.667559896435026,1.82610253611746));
#407=AXIS2_PLACEMENT_3D('',#449,#450,#451);
#408=CARTESIAN_POINT('',(0.531762579482372,0.323809896435027,1.82610253611746));
#409=AXIS2_PLACEMENT_3D('',#452,#453,#454);
#410=COLOUR_RGB('',0.901960790157318,0.82745099067688,0.776470601558685);
#411=CARTESIAN_POINT('',(0.581762579482372,0.323809896435027,1.77610253611746));
#412=AXIS2_PLACEMENT_3D('',#455,#456,#457);
#413=COLOUR_RGB('',0.901960790157318,0.82745099067688,0.776470601558685);
#414=CARTESIAN_POINT('',(0.581762579482372,0.323809896435027,1.32610253611888));
#415=AXIS2_PLACEMENT_3D('',#458,#459,#460);
#416=COLOUR_RGB('',0.901960790157318,0.82745099067688,0.776470601558685);
#417=CARTESIAN_POINT('',(-0.0432374205176286,1.42380989643496,-10.9488974638811));
#418=AXIS2_PLACEMENT_3D('',#461,#462,#463);
#419=CARTESIAN_POINT('',(1.0567625794823,0.323809896435026,-0.648897463881124));
#420=AXIS2_PLACEMENT_3D('',#464,#465,#466);
#421=COLOUR_RGB('',0.901960790157318,0.82745099067688,0.776470601558685);
#422=CARTESIAN_POINT('',(-0.0432374205176286,1.9238098964349,-11.7368974638811));
#423=AXIS2_PLACEMENT_3D('',#467,#468,#469);
#424=COLOUR_RGB('',0.901960790157318,0.82745099067688,0.776470601558685);
#425=CARTESIAN_POINT('',(-0.0432374205176286,1.42380989643496,0.351102536118876));
#426=AXIS2_PLACEMENT_3D('',#470,#471,#472);
#427=COLOUR_RGB('',0.901960790157318,0.82745099067688,0.776470601558685);
#428=CARTESIAN_POINT('',(-0.0432374205176286,0.948809896435156,-11.4238974638809));
#429=AXIS2_PLACEMENT_3D('',#473,#474,#475);
#430=COLOUR_RGB('',0.901960790157318,0.82745099067688,0.776470601558685);
#431=CARTESIAN_POINT('',(-0.0432374205176286,0.948809896435156,0.826102536118677));
#432=AXIS2_PLACEMENT_3D('',#476,#477,#478);
#433=COLOUR_RGB('',0.901960790157318,0.82745099067688,0.776470601558685);
#434=CARTESIAN_POINT('',(-0.0432374205176286,1.7368098964349,-11.9238974638811));
#435=AXIS2_PLACEMENT_3D('',#479,#480,#481);
#436=COLOUR_RGB('',0.901960790157318,0.82745099067688,0.776470601558685);
#437=COLOUR_RGB('',0.901960790157318,0.82745099067688,0.776470601558685);
#438=COLOUR_RGB('',1.0,1.0,1.0);
#439=CARTESIAN_POINT('',(-0.0432374205176286,0.667559896435026,0.826102536117467));
#440=AXIS2_PLACEMENT_3D('',#482,#483,#484);
#441=COLOUR_RGB('',0.901960790157318,0.82745099067688,0.776470601558685);
#442=COLOUR_RGB('',0.0,1.0,0.0);
#443=CARTESIAN_POINT('',(-0.0432374205176286,0.323809896435026,-0.648897463881124));
#444=DIRECTION('',(0.0,0.0,1.0));
#445=DIRECTION('',(1.0,0.0,0.0));
#446=CARTESIAN_POINT('',(-0.0432374205176286,0.323809896435026,0.351102536118874));
#447=DIRECTION('',(0.0,-6.12323399573677E-17,-1.0));
#448=DIRECTION('',(0.0,1.0,-6.12323399573677E-17));
#449=CARTESIAN_POINT('',(-0.0432374205176286,0.323809896435026,1.82610253611746));
#450=DIRECTION('',(0.0,-6.12323399573677E-17,1.0));
#451=DIRECTION('',(0.0,1.0,6.12323399573677E-17));
#452=CARTESIAN_POINT('',(-0.0432374205176286,0.323809896435027,1.82610253611746));
#453=DIRECTION('',(0.0,0.0,1.0));
#454=DIRECTION('',(1.0,0.0,0.0));
#455=CARTESIAN_POINT('',(-0.0432374205176286,0.323809896435027,1.77610253611746));
#456=DIRECTION('',(0.0,0.0,1.0));
#457=DIRECTION('',(1.0,0.0,0.0));
#458=CARTESIAN_POINT('',(-0.0432374205176286,0.323809896435027,1.32610253611888));
#459=DIRECTION('',(0.0,0.0,1.0));
#460=DIRECTION('',(1.0,0.0,0.0));
#461=CARTESIAN_POINT('',(-0.0432374205176286,0.323809896435025,-10.9488974638811));
#462=DIRECTION('',(0.0,-6.12323399573677E-17,-1.0));
#463=DIRECTION('',(0.0,1.0,-6.12323399573677E-17));
#464=CARTESIAN_POINT('',(-0.0432374205176286,0.323809896435026,-0.648897463881124));
#465=DIRECTION('',(0.0,0.0,1.0));
#466=DIRECTION('',(1.0,0.0,0.0));
#467=CARTESIAN_POINT('',(-0.0432374205176286,0.323809896435025,-11.7368974638811));
#468=DIRECTION('',(0.0,-6.12323399573677E-17,-1.0));
#469=DIRECTION('',(0.0,1.0,-6.12323399573677E-17));
#470=CARTESIAN_POINT('',(-0.0432374205176286,0.323809896435026,0.351102536118876));
#471=DIRECTION('',(0.0,-6.12323399573677E-17,-1.0));
#472=DIRECTION('',(0.0,1.0,-6.12323399573677E-17));
#473=CARTESIAN_POINT('',(-0.0432374205176286,0.323809896435025,-11.4238974638809));
#474=DIRECTION('',(0.0,-6.12323399573677E-17,-1.0));
#475=DIRECTION('',(0.0,1.0,-6.12323399573677E-17));
#476=CARTESIAN_POINT('',(-0.0432374205176286,0.323809896435026,0.826102536118677));
#477=DIRECTION('',(0.0,-6.12323399573677E-17,-1.0));
#478=DIRECTION('',(0.0,1.0,-6.12323399573677E-17));
#479=CARTESIAN_POINT('',(-0.0432374205176286,0.323809896435025,-11.9238974638811));
#480=DIRECTION('',(0.0,-6.12323399573677E-17,-1.0));
#481=DIRECTION('',(0.0,1.0,-6.12323399573677E-17));
#482=CARTESIAN_POINT('',(-0.0432374205176286,0.323809896435026,0.826102536117467));
#483=DIRECTION('',(0.0,-6.12323399573677E-17,1.0));
#484=DIRECTION('',(0.0,1.0,6.12323399573677E-17));
ENDSEC;
END-ISO-10303-21;
